Ode to Joy

Friedrich Schiller - Ukulele Tabs & Chords
A |--0---0---1---3---3---1---0-------------------0---0-----------0---0---1---3---3---1---|
E |------------------------------3---1---1---3-----------3---3---------------------------|
C |--------------------------------------------------------------------------------------|
G |--------------------------------------------------------------------------------------|
A |--0-------------------0-----------------------0-----------0---1---0-----------0---1---|
E |------3---1---1---3-------3---1---1---3---3-------1---3---------------1---3-----------|
C |--------------------------------------------------------------------------------------|
G |--------------------------------------------------------------------------------------|
A |--0-------------------0---0---0---1---3---3---1---0-------------------0---------------|
E |------1---1---3---------------------------------------3---1---1---3-------3---1---1---|
C |------------------0-------------------------------------------------------------------|
G |--------------------------------------------------------------------------------------|
Other Uke Tabs Arist Name
Hey Soul Sister Train
London Bridge Traditional
Someone Like You Adele
Camptown Races Stephen Foster
Silent Night Franz Xaver Gruber