Danny Boy

Frederic Weatherly - Ukulele Tabs & Chords
A |----------------------4--2-----------------------0--2----4--2-------------------------|
E |-----0--2--4----2--4--------4--2--0--------0--4----------------4--0--4--2--------0--2-|
C |--3----------------------------------1----------------------------------------3-------|
G |--------------------------------------------------------------------------------------|
A |-------------4--2----------------------------------0-----------------------4--6--7----|
E |--4----2--4--------4--2--0--------------0--2--4-------4--2--0--2--0-----7-------------|
C |----------------------------1--0--1--3------------------------------------------------|
G |--------------------------------------------------------------------------------------|
A |--6--6--4-----------------------4--6--7----6--6--4-----------------------11----9--9---|
E |-----------7--4--7--4--0-----7----------------------7--4--------7--7--7---------------|
C |----------------------------------------------------------6---------------------------|
G |--------------------------------------------------------------------------------------|
A |--7-----7--------------------------4--2-------------------------------|
E |-----9-----7-----0--------0--2--4--------4--2--0--------0-------------|
C |--------------8--------3--------------------------1--3----------------|
G |----------------------------------------------------------------------|
Other Uke Tabs Arist Name
I’m Yours Jason Mraz
Camptown Races Stephen Foster
Ode to Joy Friedrich Schiller
Yankee Doodle Richard Shuckburgh
Somewhere Over The Rainbow Israel Kamakawiwo'ole